  0
SECTION
  2
HEADER
  9
$ACADVER
  1
AC1014
  9
$ACADMAINTVER
 70
     9
  9
$DWGCODEPAGE
  3
ANSI_1252
  9
$INSBASE
 10
0.0
 20
0.0
 30
0.0
  9
$EXTMIN
 10
19890.4646596212
 20
9806.643851925736
 30
89.23278418542363
  9
$EXTMAX
 10
20075.27366436978
 20
9999.558438026172
 30
100.8564199816367
  9
$LIMMIN
 10
0.0
 20
0.0
  9
$LIMMAX
 10
20000.0
 20
20000.0
  9
$ORTHOMODE
 70
     0
  9
$REGENMODE
 70
     1
  9
$FILLMODE
 70
     1
  9
$QTEXTMODE
 70
     0
  9
$MIRRTEXT
 70
     1
  9
$DRAGMODE
 70
     2
  9
$LTSCALE
 40
10.0
  9
$OSMODE
 70
     1
  9
$ATTMODE
 70
     1
  9
$TEXTSIZE
 40
1.0
  9
$TRACEWID
 40
0.05
  9
$TEXTSTYLE
  7
ROMANS
  9
$CLAYER
  8
PNTELEV
  9
$CELTYPE
  6
BYLAYER
  9
$CECOLOR
 62
   256
  9
$CELTSCALE
 40
1.0
  9
$DELOBJ
 70
     1
  9
$DISPSILH
 70
     0
  9
$DIMSCALE
 40
10.0
  9
$DIMASZ
 40
0.1
  9
$DIMEXO
 40
0.0625
  9
$DIMDLI
 40
0.38
  9
$DIMRND
 40
0.0
  9
$DIMDLE
 40
0.0
  9
$DIMEXE
 40
0.0
  9
$DIMTP
 40
0.0
  9
$DIMTM
 40
0.0
  9
$DIMTXT
 40
0.1
  9
$DIMCEN
 40
0.09
  9
$DIMTSZ
 40
0.0
  9
$DIMTOL
 70
     0
  9
$DIMLIM
 70
     0
  9
$DIMTIH
 70
     1
  9
$DIMTOH
 70
     1
  9
$DIMSE1
 70
     0
  9
$DIMSE2
 70
     0
  9
$DIMTAD
 70
     0
  9
$DIMZIN
 70
     0
  9
$DIMBLK
  1

  9
$DIMASO
 70
     1
  9
$DIMSHO
 70
     1
  9
$DIMPOST
  1

  9
$DIMAPOST
  1

  9
$DIMALT
 70
     0
  9
$DIMALTD
 70
     2
  9
$DIMALTF
 40
25.4
  9
$DIMLFAC
 40
1.0
  9
$DIMTOFL
 70
     0
  9
$DIMTVP
 40
0.0
  9
$DIMTIX
 70
     0
  9
$DIMSOXD
 70
     0
  9
$DIMSAH
 70
     0
  9
$DIMBLK1
  1

  9
$DIMBLK2
  1

  9
$DIMSTYLE
  2
STANDARD
  9
$DIMCLRD
 70
     0
  9
$DIMCLRE
 70
     0
  9
$DIMCLRT
 70
     0
  9
$DIMTFAC
 40
1.0
  9
$DIMGAP
 40
0.09
  9
$DIMJUST
 70
     0
  9
$DIMSD1
 70
     0
  9
$DIMSD2
 70
     0
  9
$DIMTOLJ
 70
     1
  9
$DIMTZIN
 70
     0
  9
$DIMALTZ
 70
     0
  9
$DIMALTTZ
 70
     0
  9
$DIMFIT
 70
     3
  9
$DIMUPT
 70
     0
  9
$DIMUNIT
 70
     2
  9
$DIMDEC
 70
     4
  9
$DIMTDEC
 70
     4
  9
$DIMALTU
 70
     2
  9
$DIMALTTD
 70
     2
  9
$DIMTXSTY
  7
STANDARD
  9
$DIMAUNIT
 70
     0
  9
$LUNITS
 70
     2
  9
$LUPREC
 70
     2
  9
$SKETCHINC
 40
0.1
  9
$FILLETRAD
 40
0.0
  9
$AUNITS
 70
     4
  9
$AUPREC
 70
     4
  9
$MENU
  1
START13
  9
$ELEVATION
 40
0.0
  9
$PELEVATION
 40
0.0
  9
$THICKNESS
 40
0.0
  9
$LIMCHECK
 70
     0
  9
$BLIPMODE
 70
     0
  9
$CHAMFERA
 40
0.0
  9
$CHAMFERB
 40
0.0
  9
$CHAMFERC
 40
0.0
  9
$CHAMFERD
 40
0.0
  9
$SKPOLY
 70
     0
  9
$TDCREATE
 40
2452375.650789849
  9
$TDUPDATE
 40
2452397.571449676
  9
$TDINDWG
 40
0.1504778356
  9
$TDUSRTIMER
 40
0.1504772569
  9
$USRTIMER
 70
     1
  9
$ANGBASE
 50
0.0
  9
$ANGDIR
 70
     0
  9
$PDMODE
 70
     0
  9
$PDSIZE
 40
1.0
  9
$PLINEWID
 40
0.0
  9
$COORDS
 70
     1
  9
$SPLFRAME
 70
     0
  9
$SPLINETYPE
 70
     6
  9
$SPLINESEGS
 70
     8
  9
$ATTDIA
 70
     0
  9
$ATTREQ
 70
     1
  9
$HANDLING
 70
     1
  9
$HANDSEED
  5
145
  9
$SURFTAB1
 70
     6
  9
$SURFTAB2
 70
     6
  9
$SURFTYPE
 70
     6
  9
$SURFU
 70
     6
  9
$SURFV
 70
     6
  9
$UCSNAME
  2

  9
$UCSORG
 10
0.0
 20
0.0
 30
0.0
  9
$UCSXDIR
 10
1.0
 20
0.0
 30
0.0
  9
$UCSYDIR
 10
0.0
 20
1.0
 30
0.0
  9
$PUCSNAME
  2

  9
$PUCSORG
 10
0.0
 20
0.0
 30
0.0
  9
$PUCSXDIR
 10
1.0
 20
0.0
 30
0.0
  9
$PUCSYDIR
 10
0.0
 20
1.0
 30
0.0
  9
$USERI1
 70
     0
  9
$USERI2
 70
     0
  9
$USERI3
 70
     0
  9
$USERI4
 70
     0
  9
$USERI5
 70
     0
  9
$USERR1
 40
50.0
  9
$USERR2
 40
4.0
  9
$USERR3
 40
0.0
  9
$USERR4
 40
0.0
  9
$USERR5
 40
1.0
  9
$WORLDVIEW
 70
     1
  9
$SHADEDGE
 70
     3
  9
$SHADEDIF
 70
    70
  9
$TILEMODE
 70
     1
  9
$MAXACTVP
 70
    16
  9
$PINSBASE
 10
0.0
 20
0.0
 30
0.0
  9
$PLIMCHECK
 70
     0
  9
$PEXTMIN
 10
1.000000000000000E+20
 20
1.000000000000000E+20
 30
1.000000000000000E+20
  9
$PEXTMAX
 10
-1.000000000000000E+20
 20
-1.000000000000000E+20
 30
-1.000000000000000E+20
  9
$PLIMMIN
 10
0.0
 20
0.0
  9
$PLIMMAX
 10
12.0
 20
9.0
  9
$UNITMODE
 70
     0
  9
$VISRETAIN
 70
     0
  9
$PLINEGEN
 70
     0
  9
$PSLTSCALE
 70
     0
  9
$TREEDEPTH
 70
  3020
  9
$PICKSTYLE
 70
     1
  9
$CMLSTYLE
  2
STANDARD
  9
$CMLJUST
 70
     0
  9
$CMLSCALE
 40
1.0
  9
$PROXYGRAPHICS
 70
     1
  9
$MEASUREMENT
 70
     0
  0
ENDSEC
  0
SECTION
  2
CLASSES
  0
CLASS
  1
ACDBDICTIONARYWDFLT
  2
AcDbDictionaryWithDefault
  3
AutoCAD 2000
 90
        0
280
     0
281
     0
  0
CLASS
  1
ACDBPLACEHOLDER
  2
AcDbPlaceHolder
  3
AutoCAD 2000
 90
        0
280
     0
281
     0
  0
CLASS
  1
LAYOUT
  2
AcDbLayout
  3
AutoCAD 2000
 90
        0
280
     0
281
     0
  0
CLASS
  1
DICTIONARYVAR
  2
AcDbDictionaryVar
  3
AutoCAD 2000
 90
        0
280
     0
281
     0
  0
CLASS
  1
LONG_TRANSACTION
  2
AcDbLongTransaction
  3
AutoCAD 2000
 90
        0
280
     0
281
     0
  0
CLASS
  1
LWPOLYLINE
  2
AcDbPolyline
  3
AutoCAD 2000
 90
        0
280
     0
281
     1
  0
CLASS
  1
HATCH
  2
AcDbHatch
  3
AutoCAD 2000
 90
        0
280
     0
281
     1
  0
CLASS
  1
XRECORD
  2
AcDbXrecord
  3
AutoCAD 2000
 90
        0
280
     0
281
     0
  0
CLASS
  1
LONG_TRANSACTION
  2
AcDbLongTransaction
  3
AutoCAD 2000
 90
        0
280
     0
281
     0
  0
CLASS
  1
LWPOLYLINE
  2
AcDbPolyline
  3
AutoCAD 2000
 90
        0
280
     0
281
     1
  0
CLASS
  1
HATCH
  2
AcDbHatch
  3
AutoCAD 2000
 90
        0
280
     0
281
     1
  0
CLASS
  1
XRECORD
  2
AcDbXrecord
  3
AutoCAD 2000
 90
        0
280
     0
281
     0
  0
CLASS
  1
LONG_TRANSACTION
  2
AcDbLongTransaction
  3
AutoCAD 2000
 90
        0
280
     0
281
     0
  0
CLASS
  1
LWPOLYLINE
  2
AcDbPolyline
  3
AutoCAD 2000
 90
        0
280
     0
281
     1
  0
CLASS
  1
HATCH
  2
AcDbHatch
  3
AutoCAD 2000
 90
        0
280
     0
281
     1
  0
CLASS
  1
XRECORD
  2
AcDbXrecord
  3
AutoCAD 2000
 90
        0
280
     0
281
     0
  0
CLASS
  1
LONG_TRANSACTION
  2
AcDbLongTransaction
  3
AutoCAD 2000
 90
        0
280
     0
281
     0
  0
CLASS
  1
LWPOLYLINE
  2
AcDbPolyline
  3
AutoCAD 2000
 90
        0
280
     0
281
     1
  0
CLASS
  1
HATCH
  2
AcDbHatch
  3
AutoCAD 2000
 90
        0
280
     0
281
     1
  0
CLASS
  1
XRECORD
  2
AcDbXrecord
  3
AutoCAD 2000
 90
        0
280
     0
281
     0
  0
ENDSEC
  0
SECTION
  2
TABLES
  0
TABLE
  2
VPORT
  5
21
330
0
100
AcDbSymbolTable
 70
     2
  0
VPORT
  5
122
330
21
100
AcDbSymbolTableRecord
100
AcDbViewportTableRecord
  2
*ACTIVE
 70
     0
 10
0.0
 20
0.0
 11
1.0
 21
1.0
 12
0.6930031670617467
 22
-0.7685303845173621
 13
0.0
 23
0.0
 14
1.0
 24
1.0
 15
0.0
 25
0.0
 16
0.0
 26
0.0
 36
1.0
 17
19982.17615882843
 27
9903.869675360471
 37
101.3977578931688
 40
195.1975989536958
 41
1.928853754940711
 42
50.0
 43
-101.3977578931688
 44
-101.3977578931688
 50
0.0
 51
0.0
 71
     0
 72
   100
 73
     1
 74
     1
 75
     0
 76
     0
 77
     0
 78
     0
  0
ENDTAB
  0
TABLE
  2
LTYPE
  5
1C
330
0
100
AcDbSymbolTable
 70
     1
  0
LTYPE
  5
1D
330
1C
100
AcDbSymbolTableRecord
100
AcDbLinetypeTableRecord
  2
BYBLOCK
 70
     0
  3

 72
    65
 73
     0
 40
0.0
  0
LTYPE
  5
1E
330
1C
100
AcDbSymbolTableRecord
100
AcDbLinetypeTableRecord
  2
BYLAYER
 70
     0
  3

 72
    65
 73
     0
 40
0.0
  0
LTYPE
  5
B
330
1C
100
AcDbSymbolTableRecord
100
AcDbLinetypeTableRecord
  2
CONTINUOUS
 70
     0
  3
Solid line
 72
    65
 73
     0
 40
0.0
  0
ENDTAB
  0
TABLE
  2
LAYER
  5
15
102
{ACAD_XDICTIONARY
360
16
102
}
330
0
100
AcDbSymbolTable
 70
     8
  0
LAYER
  5
6
330
15
100
AcDbSymbolTableRecord
100
AcDbLayerTableRecord
  2
0
 70
     0
 62
     7
  6
CONTINUOUS
  0
LAYER
  5
2A
330
15
100
AcDbSymbolTableRecord
100
AcDbLayerTableRecord
  2
PNTELEV
 70
     0
 62
     2
  6
CONTINUOUS
  0
LAYER
  5
EE
330
15
100
AcDbSymbolTableRecord
100
AcDbLayerTableRecord
  2
BUILDING
 70
     0
 62
     6
  6
CONTINUOUS
  0
LAYER
  5
84
330
15
100
AcDbSymbolTableRecord
100
AcDbLayerTableRecord
  2
CONC
 70
     0
 62
     4
  6
CONTINUOUS
  0
LAYER
  5
75
330
15
100
AcDbSymbolTableRecord
100
AcDbLayerTableRecord
  2
PAVEMENT
 70
     0
 62
   140
  6
CONTINUOUS
  0
LAYER
  5
43
330
15
100
AcDbSymbolTableRecord
100
AcDbLayerTableRecord
  2
FENCE
 70
     0
 62
    42
  6
CONTINUOUS
  0
LAYER
  5
8E
330
15
100
AcDbSymbolTableRecord
100
AcDbLayerTableRecord
  2
CURB_FLOWLINE
 70
     0
 62
     7
  6
CONTINUOUS
  0
LAYER
  5
35
330
15
100
AcDbSymbolTableRecord
100
AcDbLayerTableRecord
  2
GRADE-BREAKS
 70
     0
 62
     9
  6
CONTINUOUS
  0
ENDTAB
  0
TABLE
  2
STYLE
  5
19
330
0
100
AcDbSymbolTable
 70
     2
  0
STYLE
  5
1A
330
19
100
AcDbSymbolTableRecord
100
AcDbTextStyleTableRecord
  2
STANDARD
 70
     0
 40
0.0
 41
1.0
 50
0.0
 71
     0
 42
1.0
  3
simplex.shx
  4

  0
STYLE
  5
2B
330
19
100
AcDbSymbolTableRecord
100
AcDbTextStyleTableRecord
  2
ROMANS
 70
     0
 40
0.0
 41
1.0
 50
0.0
 71
     0
 42
1.0
  3
romans.shx
  4

  0
ENDTAB
  0
TABLE
  2
VIEW
  5
1F
330
0
100
AcDbSymbolTable
 70
     0
  0
ENDTAB
  0
TABLE
  2
UCS
  5
20
330
0
100
AcDbSymbolTable
 70
     0
  0
ENDTAB
  0
TABLE
  2
APPID
  5
23
330
0
100
AcDbSymbolTable
 70
     4
  0
APPID
  5
24
330
23
100
AcDbSymbolTableRecord
100
AcDbRegAppTableRecord
  2
ACAD
 70
     0
  0
APPID
  5
A
330
23
100
AcDbSymbolTableRecord
100
AcDbRegAppTableRecord
  2
ADE
 70
     0
  0
APPID
  5
37
330
23
100
AcDbSymbolTableRecord
100
AcDbRegAppTableRecord
  2
FINISH
 70
     0
  0
APPID
  5
38
330
23
100
AcDbSymbolTableRecord
100
AcDbRegAppTableRecord
  2
HARDBRK
 70
     0
  0
ENDTAB
  0
TABLE
  2
DIMSTYLE
  5
25
330
0
100
AcDbSymbolTable
 70
     1
  0
DIMSTYLE
105
2D
330
25
100
AcDbSymbolTableRecord
100
AcDbDimStyleTableRecord
  2
STANDARD
 70
     0
  3

  4

  5

  6

  7

 40
1.0
 41
0.18
 42
0.0625
 43
0.38
 44
0.18
 45
0.0
 46
0.0
 47
0.0
 48
0.0
140
0.18
141
0.09
142
0.0
143
25.4
144
1.0
145
0.0
146
1.0
147
0.09
 71
     0
 72
     0
 73
     1
 74
     1
 75
     0
 76
     0
 77
     0
 78
     0
170
     0
171
     2
172
     0
173
     0
174
     0
175
     0
176
     0
177
     0
178
     0
270
     2
271
     4
272
     4
273
     2
274
     2
340
1A
275
     0
280
     0
281
     0
282
     0
283
     1
284
     0
285
     0
286
     0
287
     3
288
     0
  0
ENDTAB
  0
TABLE
  2
BLOCK_RECORD
  5
1
330
0
100
AcDbSymbolTable
 70
     0
  0
BLOCK_RECORD
  5
2
102
{ACAD_XDICTIONARY
360
3
102
}
330
1
100
AcDbSymbolTableRecord
100
AcDbBlockTableRecord
  2
*MODEL_SPACE
  0
BLOCK_RECORD
  5
F
102
{ACAD_XDICTIONARY
360
10
102
}
330
1
100
AcDbSymbolTableRecord
100
AcDbBlockTableRecord
  2
*PAPER_SPACE
  0
ENDTAB
  0
ENDSEC
  0
SECTION
  2
BLOCKS
  0
BLOCK
  5
5
330
2
100
AcDbEntity
  8
0
100
AcDbBlockBegin
  2
*MODEL_SPACE
 70
     0
 10
0.0
 20
0.0
 30
0.0
  3
*MODEL_SPACE
  1

  0
ENDBLK
  5
C
330
2
100
AcDbEntity
  8
0
100
AcDbBlockEnd
  0
BLOCK
  5
12
330
F
100
AcDbEntity
 67
     1
  8
0
100
AcDbBlockBegin
  2
*PAPER_SPACE
 70
     0
 10
0.0
 20
0.0
 30
0.0
  3
*PAPER_SPACE
  1

  0
ENDBLK
  5
13
330
F
100
AcDbEntity
 67
     1
  8
0
100
AcDbBlockEnd
  0
ENDSEC
  0
SECTION
  2
ENTITIES
  0
POLYLINE
  5
2E
330
2
100
AcDbEntity
  8
GRADE-BREAKS
  6
CONTINUOUS
100
AcDb3dPolyline
 66
     1
 10
0.0
 20
0.0
 30
0.0
 70
     8
1001
FINISH
1000
c:\documents and settings\jason hallett\my documents\carlson\sample data\survce_dataset\survce_demo.crd
1001
HARDBRK
1000
HARD
  0
VERTEX
  5
2F
330
2E
100
AcDbEntity
  8
GRADE-BREAKS
  6
CONTINUOUS
100
AcDbVertex
100
AcDb3dPolylineVertex
 10
20000.19193683876
 20
9829.010726287677
 30
94.96069466852951
 70
    32
  0
VERTEX
  5
30
330
2E
100
AcDbEntity
  8
GRADE-BREAKS
  6
CONTINUOUS
100
AcDbVertex
100
AcDb3dPolylineVertex
 10
20012.74630889473
 20
9836.367875592324
 30
96.17941456351276
 70
    32
  0
VERTEX
  5
31
330
2E
100
AcDbEntity
  8
GRADE-BREAKS
  6
CONTINUOUS
100
AcDbVertex
100
AcDb3dPolylineVertex
 10
20039.36541346396
 20
9850.159443971834
 30
98.22149905258344
 70
    32
  0
VERTEX
  5
32
330
2E
100
AcDbEntity
  8
GRADE-BREAKS
  6
CONTINUOUS
100
AcDbVertex
100
AcDb3dPolylineVertex
 10
20046.49309603101
 20
9852.897753475319
 30
98.62726095541612
 70
    32
  0
VERTEX
  5
33
330
2E
100
AcDbEntity
  8
GRADE-BREAKS
  6
CONTINUOUS
100
AcDbVertex
100
AcDb3dPolylineVertex
 10
20062.5778187204
 20
9859.988467293753
 30
99.84844640366439
 70
    32
  0
VERTEX
  5
34
330
2E
100
AcDbEntity
  8
GRADE-BREAKS
  6
CONTINUOUS
100
AcDbVertex
100
AcDb3dPolylineVertex
 10
20072.93932087026
 20
9864.898945459168
 30
100.8411353489478
 70
    32
  0
SEQEND
  5
36
330
2E
100
AcDbEntity
  8
GRADE-BREAKS
  6
CONTINUOUS
  0
POLYLINE
  5
39
330
2
100
AcDbEntity
  8
FENCE
  6
CONTINUOUS
100
AcDb3dPolyline
 66
     1
 10
0.0
 20
0.0
 30
0.0
 70
     8
1001
FINISH
1000
c:\documents and settings\jason hallett\my documents\carlson\sample data\survce_dataset\survce_demo.crd
  0
VERTEX
  5
3A
330
39
100
AcDbEntity
  8
FENCE
  6
CONTINUOUS
100
AcDbVertex
100
AcDb3dPolylineVertex
 10
20070.49708153164
 20
9869.107252114929
 30
99.37010782602468
 70
    32
  0
VERTEX
  5
3B
330
39
100
AcDbEntity
  8
FENCE
  6
CONTINUOUS
100
AcDbVertex
100
AcDb3dPolylineVertex
 10
20061.24127391314
 20
9885.754611457592
 30
94.45501172205849
 70
    32
  0
VERTEX
  5
3C
330
39
100
AcDbEntity
  8
FENCE
  6
CONTINUOUS
100
AcDbVertex
100
AcDb3dPolylineVertex
 10
20056.33762297843
 20
9895.145521441016
 30
93.59495527413587
 70
    32
  0
VERTEX
  5
3D
330
39
100
AcDbEntity
  8
FENCE
  6
CONTINUOUS
100
AcDbVertex
100
AcDb3dPolylineVertex
 10
20045.58298503444
 20
9915.257879497929
 30
92.7099521962384
 70
    32
  0
VERTEX
  5
3E
330
39
100
AcDbEntity
  8
FENCE
  6
CONTINUOUS
100
AcDbVertex
100
AcDb3dPolylineVertex
 10
20033.76961235601
 20
9936.516401208779
 30
92.21803121280741
 70
    32
  0
VERTEX
  5
3F
330
39
100
AcDbEntity
  8
FENCE
  6
CONTINUOUS
100
AcDbVertex
100
AcDb3dPolylineVertex
 10
20027.11047101625
 20
9949.008539320075
 30
91.74820016993228
 70
    32
  0
VERTEX
  5
40
330
39
100
AcDbEntity
  8
FENCE
  6
CONTINUOUS
100
AcDbVertex
100
AcDb3dPolylineVertex
 10
20023.31221186831
 20
9956.045578055904
 30
91.63562097187019
 70
    32
  0
VERTEX
  5
41
330
39
100
AcDbEntity
  8
FENCE
  6
CONTINUOUS
100
AcDbVertex
100
AcDb3dPolylineVertex
 10
20011.51354590399
 20
9977.879261038168
 30
91.14158916660999
 70
    32
  0
VERTEX
  5
42
330
39
100
AcDbEntity
  8
FENCE
  6
CONTINUOUS
100
AcDbVertex
100
AcDb3dPolylineVertex
 10
19999.81614977387
 20
9999.558438026172
 30
91.6821226099438
 70
    32
  0
SEQEND
  5
44
330
39
100
AcDbEntity
  8
FENCE
  6
CONTINUOUS
  0
POLYLINE
  5
45
330
2
100
AcDbEntity
  8
FENCE
  6
CONTINUOUS
100
AcDb3dPolyline
 66
     1
 10
0.0
 20
0.0
 30
0.0
 70
     8
1001
FINISH
1000
c:\documents and settings\jason hallett\my documents\carlson\sample data\survce_dataset\survce_demo.crd
  0
VERTEX
  5
46
330
45
100
AcDbEntity
  8
FENCE
  6
CONTINUOUS
100
AcDbVertex
100
AcDb3dPolylineVertex
 10
20070.49708153164
 20
9869.107252114929
 30
99.37010782602468
 70
    32
  0
VERTEX
  5
47
330
45
100
AcDbEntity
  8
FENCE
  6
CONTINUOUS
100
AcDbVertex
100
AcDb3dPolylineVertex
 10
20043.95982551351
 20
9856.986860860217
 30
96.60990560649395
 70
    32
  0
VERTEX
  5
48
330
45
100
AcDbEntity
  8
FENCE
  6
CONTINUOUS
100
AcDbVertex
100
AcDb3dPolylineVertex
 10
20023.31353139676
 20
9847.626608123356
 30
94.68809610590913
 70
    32
  0
VERTEX
  5
49
330
45
100
AcDbEntity
  8
FENCE
  6
CONTINUOUS
100
AcDbVertex
100
AcDb3dPolylineVertex
 10
20007.32939235733
 20
9840.089626906204
 30
93.38898382122094
 70
    32
  0
VERTEX
  5
4A
330
45
100
AcDbEntity
  8
FENCE
  6
CONTINUOUS
100
AcDbVertex
100
AcDb3dPolylineVertex
 10
19987.06107996764
 20
9830.643541697867
 30
92.89067382170955
 70
    32
  0
VERTEX
  5
4B
330
45
100
AcDbEntity
  8
FENCE
  6
CONTINUOUS
100
AcDbVertex
100
AcDb3dPolylineVertex
 10
19978.4043432189
 20
9847.176513828296
 30
90.33964674985066
 70
    32
  0
SEQEND
  5
4C
330
45
100
AcDbEntity
  8
FENCE
  6
CONTINUOUS
  0
POLYLINE
  5
4D
330
2
100
AcDbEntity
  8
PAVEMENT
  6
CONTINUOUS
100
AcDb3dPolyline
 66
     1
 10
0.0
 20
0.0
 30
0.0
 70
     8
1001
FINISH
1000
c:\documents and settings\jason hallett\my documents\carlson\sample data\survce_dataset\survce_demo.crd
1001
HARDBRK
1000
HARD
  0
VERTEX
  5
4E
330
4D
100
AcDbEntity
  8
PAVEMENT
  6
CONTINUOUS
100
AcDbVertex
100
AcDb3dPolylineVertex
 10
19977.34398572307
 20
9845.827457777209
 30
90.79576756729236
 70
    32
  0
VERTEX
  5
4F
330
4D
100
AcDbEntity
  8
PAVEMENT
  6
CONTINUOUS
100
AcDbVertex
100
AcDb3dPolylineVertex
 10
19980.24926342193
 20
9840.45711832811
 30
91.36762307841587
 70
    32
  0
VERTEX
  5
50
330
4D
100
AcDbEntity
  8
PAVEMENT
  6
CONTINUOUS
100
AcDbVertex
100
AcDb3dPolylineVertex
 10
19986.60446967108
 20
9827.84191266311
 30
93.4174967508844
 70
    32
  0
VERTEX
  5
51
330
4D
100
AcDbEntity
  8
PAVEMENT
  6
CONTINUOUS
100
AcDbVertex
100
AcDb3dPolylineVertex
 10
19986.80971302027
 20
9827.252548595666
 30
93.49231370159106
 70
    32
  0
VERTEX
  5
52
330
4D
100
AcDbEntity
  8
PAVEMENT
  6
CONTINUOUS
100
AcDbVertex
100
AcDb3dPolylineVertex
 10
19987.06203423413
 20
9826.681751923096
 30
93.5671306522977
 70
    32
  0
VERTEX
  5
53
330
4D
100
AcDbEntity
  8
PAVEMENT
  6
CONTINUOUS
100
AcDbVertex
100
AcDb3dPolylineVertex
 10
19987.35977412161
 20
9826.133276038678
 30
93.64194760300435
 70
    32
  0
VERTEX
  5
54
330
4D
100
AcDbEntity
  8
PAVEMENT
  6
CONTINUOUS
100
AcDbVertex
100
AcDb3dPolylineVertex
 10
19987.70097483161
 20
9825.610727560652
 30
93.71676455371106
 70
    32
  0
VERTEX
  5
55
330
4D
100
AcDbEntity
  8
PAVEMENT
  6
CONTINUOUS
100
AcDbVertex
100
AcDb3dPolylineVertex
 10
19988.08339272725
 20
9825.117542616162
 30
93.79158150441769
 70
    32
  0
VERTEX
  5
56
330
4D
100
AcDbEntity
  8
PAVEMENT
  6
CONTINUOUS
100
AcDbVertex
100
AcDb3dPolylineVertex
 10
19988.50451313946
 20
9824.65696424628
 30
93.86639845512434
 70
    32
  0
VERTEX
  5
57
330
4D
100
AcDbEntity
  8
PAVEMENT
  6
CONTINUOUS
100
AcDbVertex
100
AcDb3dPolylineVertex
 10
19988.96156690262
 20
9824.2320210807
 30
93.94121540583098
 70
    32
  0
VERTEX
  5
58
330
4D
100
AcDbEntity
  8
PAVEMENT
  6
CONTINUOUS
100
AcDbVertex
100
AcDb3dPolylineVertex
 10
19989.4515485638
 20
9823.845507422362
 30
94.01603235653764
 70
    32
  0
VERTEX
  5
59
330
4D
100
AcDbEntity
  8
PAVEMENT
  6
CONTINUOUS
100
AcDbVertex
100
AcDb3dPolylineVertex
 10
19989.97123614583
 20
9823.499964872906
 30
94.0908493072443
 70
    32
  0
VERTEX
  5
5A
330
4D
100
AcDbEntity
  8
PAVEMENT
  6
CONTINUOUS
100
AcDbVertex
100
AcDb3dPolylineVertex
 10
19990.51721233395
 20
9823.197665619865
 30
94.16566625795097
 70
    32
  0
VERTEX
  5
5B
330
4D
100
AcDbEntity
  8
PAVEMENT
  6
CONTINUOUS
100
AcDbVertex
100
AcDb3dPolylineVertex
 10
19991.08588694721
 20
9822.940597495399
 30
94.24048320865765
 70
    32
  0
VERTEX
  5
5C
330
4D
100
AcDbEntity
  8
PAVEMENT
  6
CONTINUOUS
100
AcDbVertex
100
AcDb3dPolylineVertex
 10
19991.67352054638
 20
9822.730450904884
 30
94.31530015936429
 70
    32
  0
VERTEX
  5
5D
330
4D
100
AcDbEntity
  8
PAVEMENT
  6
CONTINUOUS
100
AcDbVertex
100
AcDb3dPolylineVertex
 10
19992.27624902346
 20
9822.568607711319
 30
94.39011711007095
 70
    32
  0
VERTEX
  5
5E
330
4D
100
AcDbEntity
  8
PAVEMENT
  6
CONTINUOUS
100
AcDbVertex
100
AcDb3dPolylineVertex
 10
19992.89010901089
 20
9822.456132148577
 30
94.4649340607776
 70
    32
  0
VERTEX
  5
5F
330
4D
100
AcDbEntity
  8
PAVEMENT
  6
CONTINUOUS
100
AcDbVertex
100
AcDb3dPolylineVertex
 10
19993.51106394355
 20
9822.393763823312
 30
94.53975101148426
 70
    32
  0
VERTEX
  5
60
330
4D
100
AcDbEntity
  8
PAVEMENT
  6
CONTINUOUS
100
AcDbVertex
100
AcDb3dPolylineVertex
 10
19993.67790897976
 20
9822.385632968945
 30
94.53700519769931
 70
    32
  0
VERTEX
  5
61
330
4D
100
AcDbEntity
  8
PAVEMENT
  6
CONTINUOUS
100
AcDbVertex
100
AcDb3dPolylineVertex
 10
19993.84489118487
 20
9822.381125189822
 30
94.53425938391442
 70
    32
  0
VERTEX
  5
62
330
4D
100
AcDbEntity
  8
PAVEMENT
  6
CONTINUOUS
100
AcDbVertex
100
AcDb3dPolylineVertex
 10
19994.01193189235
 20
9822.380242609604
 30
94.53151357012949
 70
    32
  0
VERTEX
  5
63
330
4D
100
AcDbEntity
  8
PAVEMENT
  6
CONTINUOUS
100
AcDbVertex
100
AcDb3dPolylineVertex
 10
19994.17895240805
 20
9822.382985644068
 30
94.52876775634456
 70
    32
  0
VERTEX
  5
64
330
4D
100
AcDbEntity
  8
PAVEMENT
  6
CONTINUOUS
100
AcDbVertex
100
AcDb3dPolylineVertex
 10
19994.34587404734
 20
9822.389353000959
 30
94.52602194255964
 70
    32
  0
VERTEX
  5
65
330
4D
100
AcDbEntity
  8
PAVEMENT
  6
CONTINUOUS
100
AcDbVertex
100
AcDb3dPolylineVertex
 10
19994.51261817221
 20
9822.399341680569
 30
94.52327612877473
 70
    32
  0
VERTEX
  5
66
330
4D
100
AcDbEntity
  8
PAVEMENT
  6
CONTINUOUS
100
AcDbVertex
100
AcDb3dPolylineVertex
 10
19994.67910622827
 20
9822.412946977149
 30
94.5205303149898
 70
    32
  0
VERTEX
  5
67
330
4D
100
AcDbEntity
  8
PAVEMENT
  6
CONTINUOUS
100
AcDbVertex
100
AcDb3dPolylineVertex
 10
19994.84525978171
 20
9822.430162481147
 30
94.51778450120487
 70
    32
  0
VERTEX
  5
68
330
4D
100
AcDbEntity
  8
PAVEMENT
  6
CONTINUOUS
100
AcDbVertex
100
AcDb3dPolylineVertex
 10
19995.01100055637
 20
9822.450980082205
 30
94.51503868741994
 70
    32
  0
VERTEX
  5
69
330
4D
100
AcDbEntity
  8
PAVEMENT
  6
CONTINUOUS
100
AcDbVertex
100
AcDb3dPolylineVertex
 10
19995.17625047054
 20
9822.475389973002
 30
94.51229287363505
 70
    32
  0
VERTEX
  5
6A
330
4D
100
AcDbEntity
  8
PAVEMENT
  6
CONTINUOUS
100
AcDbVertex
100
AcDb3dPolylineVertex
 10
19995.34093167373
 20
9822.503380653856
 30
94.50954705985012
 70
    32
  0
VERTEX
  5
6B
330
4D
100
AcDbEntity
  8
PAVEMENT
  6
CONTINUOUS
100
AcDbVertex
100
AcDb3dPolylineVertex
 10
19995.50496658341
 20
9822.53493893814
 30
94.50680124606519
 70
    32
  0
VERTEX
  5
6C
330
4D
100
AcDbEntity
  8
PAVEMENT
  6
CONTINUOUS
100
AcDbVertex
100
AcDb3dPolylineVertex
 10
19995.6682779215
 20
9822.570049958514
 30
94.50405543228027
 70
    32
  0
VERTEX
  5
6D
330
4D
100
AcDbEntity
  8
PAVEMENT
  6
CONTINUOUS
100
AcDbVertex
100
AcDb3dPolylineVertex
 10
19995.83078875081
 20
9822.608697173921
 30
94.50130961849536
 70
    32
  0
VERTEX
  5
6E
330
4D
100
AcDbEntity
  8
PAVEMENT
  6
CONTINUOUS
100
AcDbVertex
100
AcDb3dPolylineVertex
 10
19995.99242251127
 20
9822.650862377356
 30
94.49856380471045
 70
    32
  0
VERTEX
  5
6F
330
4D
100
AcDbEntity
  8
PAVEMENT
  6
CONTINUOUS
100
AcDbVertex
100
AcDb3dPolylineVertex
 10
20002.27743508783
 20
9825.58751145086
 30
94.91539984886934
 70
    32
  0
VERTEX
  5
70
330
4D
100
AcDbEntity
  8
PAVEMENT
  6
CONTINUOUS
100
AcDbVertex
100
AcDb3dPolylineVertex
 10
20014.96505759867
 20
9831.254182210976
 30
95.90767134806901
 70
    32
  0
VERTEX
  5
71
330
4D
100
AcDbEntity
  8
PAVEMENT
  6
CONTINUOUS
100
AcDbVertex
100
AcDb3dPolylineVertex
 10
20042.77757818405
 20
9844.617714604174
 30
98.20911024407472
 70
    32
  0
VERTEX
  5
72
330
4D
100
AcDbEntity
  8
PAVEMENT
  6
CONTINUOUS
100
AcDbVertex
100
AcDb3dPolylineVertex
 10
20049.67760530445
 20
9848.448301213425
 30
98.67816613706033
 70
    32
  0
VERTEX
  5
73
330
4D
100
AcDbEntity
  8
PAVEMENT
  6
CONTINUOUS
100
AcDbVertex
100
AcDb3dPolylineVertex
 10
20066.03520946358
 20
9856.676232191958
 30
100.0814453224097
 70
    32
  0
VERTEX
  5
74
330
4D
100
AcDbEntity
  8
PAVEMENT
  6
CONTINUOUS
100
AcDbVertex
100
AcDb3dPolylineVertex
 10
20075.27366436978
 20
9860.696385545146
 30
100.8564199816367
 70
    32
  0
SEQEND
  5
76
330
4D
100
AcDbEntity
  8
PAVEMENT
  6
CONTINUOUS
  0
POLYLINE
  5
77
330
2
100
AcDbEntity
  8
CONC
100
AcDb3dPolyline
 66
     1
 10
0.0
 20
0.0
 30
0.0
 70
     8
1001
FINISH
1000
c:\documents and settings\jason hallett\my documents\carlson\sample data\survce_dataset\survce_demo.crd
1001
HARDBRK
1000
HARD
  0
VERTEX
  5
78
330
77
100
AcDbEntity
  8
CONC
100
AcDbVertex
100
AcDb3dPolylineVertex
 10
19940.74802655746
 20
9864.862317422504
 30
90.3269547779991
 70
    32
  0
VERTEX
  5
79
330
77
100
AcDbEntity
  8
CONC
100
AcDbVertex
100
AcDb3dPolylineVertex
 10
19944.4459342265
 20
9866.702832652213
 30
90.37602667704133
 70
    32
  0
VERTEX
  5
7A
330
77
100
AcDbEntity
  8
CONC
100
AcDbVertex
100
AcDb3dPolylineVertex
 10
19952.49942187379
 20
9852.611308566821
 30
89.6919138036822
 70
    32
  0
VERTEX
  5
7B
330
77
100
AcDbEntity
  8
CONC
100
AcDbVertex
100
AcDb3dPolylineVertex
 10
19960.80759602736
 20
9836.944975131338
 30
90.73778846329814
 70
    32
  0
VERTEX
  5
7C
330
77
100
AcDbEntity
  8
CONC
100
AcDbVertex
100
AcDb3dPolylineVertex
 10
19977.32461836196
 20
9845.99639652135
 30
90.81393223166944
 70
    32
  0
VERTEX
  5
7D
330
77
100
AcDbEntity
  8
CONC
100
AcDbVertex
100
AcDb3dPolylineVertex
 10
19968.78498747551
 20
9861.628937235737
 30
89.98551403112477
 70
    32
  0
VERTEX
  5
7E
330
77
100
AcDbEntity
  8
CONC
100
AcDbVertex
100
AcDb3dPolylineVertex
 10
19961.04994143141
 20
9875.716829199234
 30
90.46433145623254
 70
    32
  0
VERTEX
  5
7F
330
77
100
AcDbEntity
  8
CONC
100
AcDbVertex
100
AcDb3dPolylineVertex
 10
19986.40752699899
 20
9889.459129261092
 30
90.85401193209113
 70
    32
  0
VERTEX
  5
80
330
77
100
AcDbEntity
  8
CONC
100
AcDbVertex
100
AcDb3dPolylineVertex
 10
19982.90846501748
 20
9896.156325838212
 30
90.92339740163069
 70
    32
  0
VERTEX
  5
81
330
77
100
AcDbEntity
  8
CONC
100
AcDbVertex
100
AcDb3dPolylineVertex
 10
19975.92934167111
 20
9892.394873113858
 30
90.92911937835607
 70
    32
  0
VERTEX
  5
82
330
77
100
AcDbEntity
  8
CONC
100
AcDbVertex
100
AcDb3dPolylineVertex
 10
19977.6165707142
 20
9889.1673486692
 30
90.77954699313506
 70
    32
  0
VERTEX
  5
83
330
77
100
AcDbEntity
  8
CONC
100
AcDbVertex
100
AcDb3dPolylineVertex
 10
19962.1748468988
 20
9880.806014018162
 30
90.55750625800049
 70
    32
  0
SEQEND
  5
85
330
77
100
AcDbEntity
  8
CONC
  0
POLYLINE
  5
86
330
2
100
AcDbEntity
  8
CURB_FLOWLINE
100
AcDb3dPolyline
 66
     1
 10
0.0
 20
0.0
 30
0.0
 70
     8
1001
FINISH
1000
c:\documents and settings\jason hallett\my documents\carlson\sample data\survce_dataset\survce_demo.crd
1001
HARDBRK
1000
HARD
  0
VERTEX
  5
87
330
86
100
AcDbEntity
  8
CURB_FLOWLINE
100
AcDbVertex
100
AcDb3dPolylineVertex
 10
19982.32395361243
 20
9970.368228750329
 30
90.32608929228814
 70
    32
  0
VERTEX
  5
88
330
86
100
AcDbEntity
  8
CURB_FLOWLINE
100
AcDbVertex
100
AcDb3dPolylineVertex
 10
19963.05283763854
 20
9962.454007772617
 30
90.27391017481471
 70
    32
  0
VERTEX
  5
89
330
86
100
AcDbEntity
  8
CURB_FLOWLINE
100
AcDbVertex
100
AcDb3dPolylineVertex
 10
19946.89662413878
 20
9953.770606086969
 30
89.90167955046469
 70
    32
  0
VERTEX
  5
8A
330
86
100
AcDbEntity
  8
CURB_FLOWLINE
100
AcDbVertex
100
AcDb3dPolylineVertex
 10
19933.41083342098
 20
9946.813740745367
 30
89.71698002214647
 70
    32
  0
VERTEX
  5
8B
330
86
100
AcDbEntity
  8
CURB_FLOWLINE
100
AcDbVertex
100
AcDb3dPolylineVertex
 10
19921.20887015332
 20
9939.370306509388
 30
89.55961663047173
 70
    32
  0
VERTEX
  5
8C
330
86
100
AcDbEntity
  8
CURB_FLOWLINE
100
AcDbVertex
100
AcDb3dPolylineVertex
 10
19910.85626845519
 20
9933.429918136958
 30
89.41549622446993
 70
    32
  0
VERTEX
  5
8D
330
86
100
AcDbEntity
  8
CURB_FLOWLINE
100
AcDbVertex
100
AcDb3dPolylineVertex
 10
19900.22588936206
 20
9927.487814123438
 30
89.23278418542363
 70
    32
  0
SEQEND
  5
8F
330
86
100
AcDbEntity
  8
CURB_FLOWLINE
  0
POLYLINE
  5
90
330
2
100
AcDbEntity
  8
FENCE
  6
CONTINUOUS
100
AcDb3dPolyline
 66
     1
 10
0.0
 20
0.0
 30
0.0
 70
     8
1001
FINISH
1000
c:\documents and settings\jason hallett\my documents\carlson\sample data\survce_dataset\survce_demo.crd
  0
VERTEX
  5
91
330
90
100
AcDbEntity
  8
FENCE
  6
CONTINUOUS
100
AcDbVertex
100
AcDb3dPolylineVertex
 10
19953.92092924124
 20
9823.820938514886
 30
91.52590239808727
 70
    32
  0
VERTEX
  5
92
330
90
100
AcDbEntity
  8
FENCE
  6
CONTINUOUS
100
AcDbVertex
100
AcDb3dPolylineVertex
 10
19949.68514513745
 20
9831.12761863332
 30
90.45731134828676
 70
    32
  0
VERTEX
  5
93
330
90
100
AcDbEntity
  8
FENCE
  6
CONTINUOUS
100
AcDbVertex
100
AcDb3dPolylineVertex
 10
19943.00281546876
 20
9843.968380682419
 30
89.75203703782911
 70
    32
  0
VERTEX
  5
94
330
90
100
AcDbEntity
  8
FENCE
  6
CONTINUOUS
100
AcDbVertex
100
AcDb3dPolylineVertex
 10
19935.56923648718
 20
9857.754275287113
 30
89.45871981614242
 70
    32
  0
VERTEX
  5
95
330
90
100
AcDbEntity
  8
FENCE
  6
CONTINUOUS
100
AcDbVertex
100
AcDb3dPolylineVertex
 10
19925.44717776629
 20
9876.900224871432
 30
89.69555663463067
 70
    32
  0
VERTEX
  5
96
330
90
100
AcDbEntity
  8
FENCE
  6
CONTINUOUS
100
AcDbVertex
100
AcDb3dPolylineVertex
 10
19912.62436863061
 20
9900.807352851286
 30
89.92424441916842
 70
    32
  0
VERTEX
  5
97
330
90
100
AcDbEntity
  8
FENCE
  6
CONTINUOUS
100
AcDbVertex
100
AcDb3dPolylineVertex
 10
19898.60374525111
 20
9927.088864019014
 30
89.31942673311139
 70
    32
  0
VERTEX
  5
98
330
90
100
AcDbEntity
  8
FENCE
  6
CONTINUOUS
100
AcDbVertex
100
AcDb3dPolylineVertex
 10
19890.69708964839
 20
9941.720643957587
 30
90.71880246536478
 70
    32
  0
SEQEND
  5
99
330
90
100
AcDbEntity
  8
FENCE
  6
CONTINUOUS
  0
POLYLINE
  5
9A
330
2
100
AcDbEntity
  8
GRADE-BREAKS
  6
CONTINUOUS
100
AcDb3dPolyline
 66
     1
 10
0.0
 20
0.0
 30
0.0
 70
     8
1001
FINISH
1000
c:\documents and settings\jason hallett\my documents\carlson\sample data\survce_dataset\survce_demo.crd
1001
HARDBRK
1000
HARD
  0
VERTEX
  5
9B
330
9A
100
AcDbEntity
  8
GRADE-BREAKS
  6
CONTINUOUS
100
AcDbVertex
100
AcDb3dPolylineVertex
 10
20000.22325676334
 20
9839.455952454136
 30
91.64995020925898
 70
    32
  0
VERTEX
  5
9C
330
9A
100
AcDbEntity
  8
GRADE-BREAKS
  6
CONTINUOUS
100
AcDbVertex
100
AcDb3dPolylineVertex
 10
20015.80008951835
 20
9853.503200872182
 30
92.20691796164532
 70
    32
  0
VERTEX
  5
9D
330
9A
100
AcDbEntity
  8
GRADE-BREAKS
  6
CONTINUOUS
100
AcDbVertex
100
AcDb3dPolylineVertex
 10
20034.70431162226
 20
9863.978728023791
 30
93.42034848723315
 70
    32
  0
VERTEX
  5
9E
330
9A
100
AcDbEntity
  8
GRADE-BREAKS
  6
CONTINUOUS
100
AcDbVertex
100
AcDb3dPolylineVertex
 10
20046.06777555054
 20
9873.330278731309
 30
93.7022572342475
 70
    32
  0
VERTEX
  5
9F
330
9A
100
AcDbEntity
  8
GRADE-BREAKS
  6
CONTINUOUS
100
AcDbVertex
100
AcDb3dPolylineVertex
 10
20061.99753363011
 20
9884.778909377779
 30
94.79340054594258
 70
    32
  0
SEQEND
  5
A0
330
9A
100
AcDbEntity
  8
GRADE-BREAKS
  6
CONTINUOUS
  0
POLYLINE
  5
A1
330
2
100
AcDbEntity
  8
FENCE
  6
CONTINUOUS
100
AcDb3dPolyline
 66
     1
 10
0.0
 20
0.0
 30
0.0
 70
     8
1001
FINISH
1000
c:\documents and settings\jason hallett\my documents\carlson\sample data\survce_dataset\survce_demo.crd
  0
VERTEX
  5
A2
330
A1
100
AcDbEntity
  8
FENCE
  6
CONTINUOUS
100
AcDbVertex
100
AcDb3dPolylineVertex
 10
19890.4646596212
 20
9941.667195229811
 30
90.85727131033031
 70
    32
  0
VERTEX
  5
A3
330
A1
100
AcDbEntity
  8
FENCE
  6
CONTINUOUS
100
AcDbVertex
100
AcDb3dPolylineVertex
 10
19905.0989849405
 20
9949.877924508207
 30
90.99895147657688
 70
    32
  0
VERTEX
  5
A4
330
A1
100
AcDbEntity
  8
FENCE
  6
CONTINUOUS
100
AcDbVertex
100
AcDb3dPolylineVertex
 10
19923.80495852333
 20
9959.83621925059
 30
91.13114194409893
 70
    32
  0
VERTEX
  5
A5
330
A1
100
AcDbEntity
  8
FENCE
  6
CONTINUOUS
100
AcDbVertex
100
AcDb3dPolylineVertex
 10
19943.83924390788
 20
9970.871519257265
 30
91.26168445602706
 70
    32
  0
VERTEX
  5
A6
330
A1
100
AcDbEntity
  8
FENCE
  6
CONTINUOUS
100
AcDbVertex
100
AcDb3dPolylineVertex
 10
19967.34884453423
 20
9983.402229393997
 30
91.53219775763313
 70
    32
  0
VERTEX
  5
A7
330
A1
100
AcDbEntity
  8
FENCE
  6
CONTINUOUS
100
AcDbVertex
100
AcDb3dPolylineVertex
 10
19984.48247119186
 20
9992.972999626342
 30
91.66530694177644
 70
    32
  0
SEQEND
  5
A8
330
A1
100
AcDbEntity
  8
FENCE
  6
CONTINUOUS
  0
POLYLINE
  5
A9
330
2
100
AcDbEntity
  8
PAVEMENT
  6
CONTINUOUS
100
AcDb3dPolyline
 66
     1
 10
0.0
 20
0.0
 30
0.0
 70
     8
1001
FINISH
1000
c:\documents and settings\jason hallett\my documents\carlson\sample data\survce_dataset\survce_demo.crd
1001
HARDBRK
1000
HARD
  0
VERTEX
  5
AA
330
A9
100
AcDbEntity
  8
PAVEMENT
  6
CONTINUOUS
100
AcDbVertex
100
AcDb3dPolylineVertex
 10
19960.72046908363
 20
9806.643851925736
 30
92.61157628387927
 70
    32
  0
VERTEX
  5
AB
330
A9
100
AcDbEntity
  8
PAVEMENT
  6
CONTINUOUS
100
AcDbVertex
100
AcDb3dPolylineVertex
 10
19967.67478945408
 20
9809.825255589577
 30
92.9393884808744
 70
    32
  0
VERTEX
  5
AC
330
A9
100
AcDbEntity
  8
PAVEMENT
  6
CONTINUOUS
100
AcDbVertex
100
AcDb3dPolylineVertex
 10
19968.00253947105
 20
9809.942081107102
 30
92.95929535050069
 70
    32
  0
VERTEX
  5
AD
330
A9
100
AcDbEntity
  8
PAVEMENT
  6
CONTINUOUS
100
AcDbVertex
100
AcDb3dPolylineVertex
 10
19968.32217451433
 20
9810.079564612568
 30
92.97920222012692
 70
    32
  0
VERTEX
  5
AE
330
A9
100
AcDbEntity
  8
PAVEMENT
  6
CONTINUOUS
100
AcDbVertex
100
AcDb3dPolylineVertex
 10
19968.63239404581
 20
9810.237146710065
 30
92.99910908975315
 70
    32
  0
VERTEX
  5
AF
330
A9
100
AcDbEntity
  8
PAVEMENT
  6
CONTINUOUS
100
AcDbVertex
100
AcDb3dPolylineVertex
 10
19968.93193583745
 20
9810.414186226076
 30
93.01901595937939
 70
    32
  0
VERTEX
  5
B0
330
A9
100
AcDbEntity
  8
PAVEMENT
  6
CONTINUOUS
100
AcDbVertex
100
AcDb3dPolylineVertex
 10
19969.21958110699
 20
9810.609962818332
 30
93.03892282900568
 70
    32
  0
VERTEX
  5
B1
330
A9
100
AcDbEntity
  8
PAVEMENT
  6
CONTINUOUS
100
AcDbVertex
100
AcDb3dPolylineVertex
 10
19969.49415947705
 20
9810.823679906718
 30
93.05882969863191
 70
    32
  0
VERTEX
  5
B2
330
A9
100
AcDbEntity
  8
PAVEMENT
  6
CONTINUOUS
100
AcDbVertex
100
AcDb3dPolylineVertex
 10
19969.75455373709
 20
9811.054467914434
 30
93.07873656825815
 70
    32
  0
VERTEX
  5
B3
330
A9
100
AcDbEntity
  8
PAVEMENT
  6
CONTINUOUS
100
AcDbVertex
100
AcDb3dPolylineVertex
 10
19969.9997043892
 20
9811.301387806157
 30
93.09864343788442
 70
    32
  0
VERTEX
  5
B4
330
A9
100
AcDbEntity
  8
PAVEMENT
  6
CONTINUOUS
100
AcDbVertex
100
AcDb3dPolylineVertex
 10
19970.22861395906
 20
9811.563434908794
 30
93.11855030751068
 70
    32
  0
VERTEX
  5
B5
330
A9
100
AcDbEntity
  8
PAVEMENT
  6
CONTINUOUS
100
AcDbVertex
100
AcDb3dPolylineVertex
 10
19970.44035105432
 20
9811.839542999328
 30
93.13845717713691
 70
    32
  0
VERTEX
  5
B6
330
A9
100
AcDbEntity
  8
PAVEMENT
  6
CONTINUOUS
100
AcDbVertex
100
AcDb3dPolylineVertex
 10
19970.63405415445
 20
9812.128588643076
 30
93.15836404676316
 70
    32
  0
VERTEX
  5
B7
330
A9
100
AcDbEntity
  8
PAVEMENT
  6
CONTINUOUS
100
AcDbVertex
100
AcDb3dPolylineVertex
 10
19970.80893511599
 20
9812.429395764759
 30
93.17827091638942
 70
    32
  0
VERTEX
  5
B8
330
A9
100
AcDbEntity
  8
PAVEMENT
  6
CONTINUOUS
100
AcDbVertex
100
AcDb3dPolylineVertex
 10
19970.96428237946
 20
9812.740740433739
 30
93.19817778601567
 70
    32
  0
VERTEX
  5
B9
330
A9
100
AcDbEntity
  8
PAVEMENT
  6
CONTINUOUS
100
AcDbVertex
100
AcDb3dPolylineVertex
 10
19971.09946386448
 20
9813.061355843966
 30
93.21808465564192
 70
    32
  0
VERTEX
  5
BA
330
A9
100
AcDbEntity
  8
PAVEMENT
  6
CONTINUOUS
100
AcDbVertex
100
AcDb3dPolylineVertex
 10
19971.21392954164
 20
9813.389937468405
 30
93.23799152526815
 70
    32
  0
VERTEX
  5
BB
330
A9
100
AcDbEntity
  8
PAVEMENT
  6
CONTINUOUS
100
AcDbVertex
100
AcDb3dPolylineVertex
 10
19971.27960901053
 20
9813.616929550681
 30
93.2252897668552
 70
    32
  0
VERTEX
  5
BC
330
A9
100
AcDbEntity
  8
PAVEMENT
  6
CONTINUOUS
100
AcDbVertex
100
AcDb3dPolylineVertex
 10
19971.33539585454
 20
9813.846553212542
 30
93.21258800844223
 70
    32
  0
VERTEX
  5
BD
330
A9
100
AcDbEntity
  8
PAVEMENT
  6
CONTINUOUS
100
AcDbVertex
100
AcDb3dPolylineVertex
 10
19971.38118538268
 20
9814.078377536464
 30
93.19988625002926
 70
    32
  0
VERTEX
  5
BE
330
A9
100
AcDbEntity
  8
PAVEMENT
  6
CONTINUOUS
100
AcDbVertex
100
AcDb3dPolylineVertex
 10
19971.41689166518
 20
9814.311967475116
 30
93.18718449161631
 70
    32
  0
VERTEX
  5
BF
330
A9
100
AcDbEntity
  8
PAVEMENT
  6
CONTINUOUS
100
AcDbVertex
100
AcDb3dPolylineVertex
 10
19971.44244769472
 20
9814.54688466777
 30
93.17448273320334
 70
    32
  0
VERTEX
  5
C0
330
A9
100
AcDbEntity
  8
PAVEMENT
  6
CONTINUOUS
100
AcDbVertex
100
AcDb3dPolylineVertex
 10
19971.45780551224
 20
9814.78268826293
 30
93.16178097479037
 70
    32
  0
VERTEX
  5
C1
330
A9
100
AcDbEntity
  8
PAVEMENT
  6
CONTINUOUS
100
AcDbVertex
100
AcDb3dPolylineVertex
 10
19971.46293629685
 20
9815.018935745669
 30
93.14907921637741
 70
    32
  0
VERTEX
  5
C2
330
A9
100
AcDbEntity
  8
PAVEMENT
  6
CONTINUOUS
100
AcDbVertex
100
AcDb3dPolylineVertex
 10
19971.45783042
 20
9815.255183768034
 30
93.13637745796444
 70
    32
  0
VERTEX
  5
C3
330
A9
100
AcDbEntity
  8
PAVEMENT
  6
CONTINUOUS
100
AcDbVertex
100
AcDb3dPolylineVertex
 10
19971.44249746351
 20
9815.490988981068
 30
93.12367569955148
 70
    32
  0
VERTEX
  5
C4
330
A9
100
AcDbEntity
  8
PAVEMENT
  6
CONTINUOUS
100
AcDbVertex
100
AcDb3dPolylineVertex
 10
19971.41696620159
 20
9815.725908866808
 30
93.11097394113851
 70
    32
  0
VERTEX
  5
C5
330
A9
100
AcDbEntity
  8
PAVEMENT
  6
CONTINUOUS
100
AcDbVertex
100
AcDb3dPolylineVertex
 10
19971.38128454684
 20
9815.959502568704
 30
93.09827218272554
 70
    32
  0
VERTEX
  5
C6
330
A9
100
AcDbEntity
  8
PAVEMENT
  6
CONTINUOUS
100
AcDbVertex
100
AcDb3dPolylineVertex
 10
19971.33551946035
 20
9816.191331718956
 30
93.08557042431258
 70
    32
  0
VERTEX
  5
C7
330
A9
100
AcDbEntity
  8
PAVEMENT
  6
CONTINUOUS
100
AcDbVertex
100
AcDb3dPolylineVertex
 10
19971.27975682604
 20
9816.420961261188
 30
93.0728686658996
 70
    32
  0
VERTEX
  5
C8
330
A9
100
AcDbEntity
  8
PAVEMENT
  6
CONTINUOUS
100
AcDbVertex
100
AcDb3dPolylineVertex
 10
19971.21410128945
 20
9816.647960266834
 30
93.06016690748664
 70
    32
  0
VERTEX
  5
C9
330
A9
100
AcDbEntity
  8
PAVEMENT
  6
CONTINUOUS
100
AcDbVertex
100
AcDb3dPolylineVertex
 10
19971.1386760614
 20
9816.871902743878
 30
93.04746514907369
 70
    32
  0
VERTEX
  5
CA
330
A9
100
AcDbEntity
  8
PAVEMENT
  6
CONTINUOUS
100
AcDbVertex
100
AcDb3dPolylineVertex
 10
19971.1386760614
 20
9816.871902743878
 30
93.04746514907369
 70
    32
  0
VERTEX
  5
CB
330
A9
100
AcDbEntity
  8
PAVEMENT
  6
CONTINUOUS
100
AcDbVertex
100
AcDb3dPolylineVertex
 10
19968.13404399321
 20
9823.497224551934
 30
92.37899943397634
 70
    32
  0
VERTEX
  5
CC
330
A9
100
AcDbEntity
  8
PAVEMENT
  6
CONTINUOUS
100
AcDbVertex
100
AcDb3dPolylineVertex
 10
19964.64578237253
 20
9829.981675140729
 30
91.45540095035705
 70
    32
  0
VERTEX
  5
CD
330
A9
100
AcDbEntity
  8
PAVEMENT
  6
CONTINUOUS
100
AcDbVertex
100
AcDb3dPolylineVertex
 10
19960.83418822316
 20
9836.795904018986
 30
90.80268902212358
 70
    32
  0
SEQEND
  5
CE
330
A9
100
AcDbEntity
  8
PAVEMENT
  6
CONTINUOUS
  0
POLYLINE
  5
CF
330
2
100
AcDbEntity
  8
CONC
100
AcDb3dPolyline
 66
     1
 10
0.0
 20
0.0
 30
0.0
 70
     8
1001
FINISH
1000
c:\documents and settings\jason hallett\my documents\carlson\sample data\survce_dataset\survce_demo.crd
1001
HARDBRK
1000
HARD
  0
VERTEX
  5
D0
330
CF
100
AcDbEntity
  8
CONC
100
AcDbVertex
100
AcDb3dPolylineVertex
 10
19923.72437449908
 20
9907.926036798688
 30
91.28727210180159
 70
    32
  0
VERTEX
  5
D1
330
CF
100
AcDbEntity
  8
CONC
100
AcDbVertex
100
AcDb3dPolylineVertex
 10
19920.00003303138
 20
9914.850725557284
 30
91.12878534710388
 70
    32
  0
VERTEX
  5
D2
330
CF
100
AcDbEntity
  8
CONC
100
AcDbVertex
100
AcDb3dPolylineVertex
 10
19921.23543637141
 20
9915.517378023677
 30
91.16390010633772
 70
    32
  0
VERTEX
  5
D3
330
CF
100
AcDbEntity
  8
CONC
100
AcDbVertex
100
AcDb3dPolylineVertex
 10
19921.3063707164
 20
9915.555815099878
 30
91.76562903237266
 70
    32
  0
VERTEX
  5
D4
330
CF
100
AcDbEntity
  8
CONC
100
AcDbVertex
100
AcDb3dPolylineVertex
 10
19937.9926965015
 20
9924.51497860387
 30
91.70505977157068
 70
    32
  0
VERTEX
  5
D5
330
CF
100
AcDbEntity
  8
CONC
100
AcDbVertex
100
AcDb3dPolylineVertex
 10
19940.381736812
 20
9920.178988464822
 30
91.81829433753994
 70
    32
  0
VERTEX
  5
D6
330
CF
100
AcDbEntity
  8
CONC
100
AcDbVertex
100
AcDb3dPolylineVertex
 10
19963.27755391519
 20
9932.55614129254
 30
91.75145065988351
 70
    32
  0
VERTEX
  5
D7
330
CF
100
AcDbEntity
  8
CONC
100
AcDbVertex
100
AcDb3dPolylineVertex
 10
19973.4879276325
 20
9938.083762599825
 30
91.73984649573316
 70
    32
  0
VERTEX
  5
D8
330
CF
100
AcDbEntity
  8
CONC
100
AcDbVertex
100
AcDb3dPolylineVertex
 10
19987.8680765878
 20
9945.870977838817
 30
91.7325826592417
 70
    32
  0
SEQEND
  5
D9
330
CF
100
AcDbEntity
  8
CONC
  0
POLYLINE
  5
DA
330
2
100
AcDbEntity
  8
BUILDING
100
AcDb3dPolyline
 66
     1
 10
0.0
 20
0.0
 30
0.0
 70
     9
1001
FINISH
1000
c:\documents and settings\jason hallett\my documents\carlson\sample data\survce_dataset\survce_demo.crd
1001
HARDBRK
1000
HARD
  0
VERTEX
  5
DB
330
DA
100
AcDbEntity
  8
BUILDING
100
AcDbVertex
100
AcDb3dPolylineVertex
 10
19991.81744666456
 20
9938.980554197602
 30
91.4205633459886
 70
    32
  0
VERTEX
  5
DC
330
DA
100
AcDbEntity
  8
BUILDING
100
AcDbVertex
100
AcDb3dPolylineVertex
 10
20008.05139729378
 20
9908.940015925432
 30
91.50194560710501
 70
    32
  0
VERTEX
  5
DD
330
DA
100
AcDbEntity
  8
BUILDING
100
AcDbVertex
100
AcDb3dPolylineVertex
 10
19995.62821134503
 20
9902.253610551646
 30
91.24413168820941
 70
    32
  0
VERTEX
  5
DE
330
DA
100
AcDbEntity
  8
BUILDING
100
AcDbVertex
100
AcDb3dPolylineVertex
 10
19994.42908530733
 20
9905.911594390222
 30
91.20319327995559
 70
    32
  0
VERTEX
  5
DF
330
DA
100
AcDbEntity
  8
BUILDING
100
AcDbVertex
100
AcDb3dPolylineVertex
 10
19983.67848433623
 20
9900.146995498324
 30
90.95185817511408
 70
    32
  0
VERTEX
  5
E0
330
DA
100
AcDbEntity
  8
BUILDING
100
AcDbVertex
100
AcDb3dPolylineVertex
 10
19984.23632223316
 20
9898.349056174202
 30
90.91688157249192
 70
    32
  0
VERTEX
  5
E1
330
DA
100
AcDbEntity
  8
BUILDING
100
AcDbVertex
100
AcDb3dPolylineVertex
 10
19973.51421810807
 20
9892.532723445329
 30
90.60460618240098
 70
    32
  0
VERTEX
  5
E2
330
DA
100
AcDbEntity
  8
BUILDING
100
AcDbVertex
100
AcDb3dPolylineVertex
 10
19972.62235836256
 20
9894.253493825802
 30
90.57320717489846
 70
    32
  0
VERTEX
  5
E3
330
DA
100
AcDbEntity
  8
BUILDING
100
AcDbVertex
100
AcDb3dPolylineVertex
 10
19958.69047654857
 20
9886.791985968217
 30
90.2503615912118
 70
    32
  0
VERTEX
  5
E4
330
DA
100
AcDbEntity
  8
BUILDING
100
AcDbVertex
100
AcDb3dPolylineVertex
 10
19961.97697349439
 20
9880.646702879836
 30
90.56115179770406
 70
    32
  0
VERTEX
  5
E5
330
DA
100
AcDbEntity
  8
BUILDING
100
AcDbVertex
100
AcDb3dPolylineVertex
 10
19942.42247023225
 20
9870.059316343605
 30
90.47983840761114
 70
    32
  0
VERTEX
  5
E6
330
DA
100
AcDbEntity
  8
BUILDING
100
AcDbVertex
100
AcDb3dPolylineVertex
 10
19922.30784495778
 20
9907.163126166526
 30
90.56902444912596
 70
    32
  0
VERTEX
  5
E7
330
DA
100
AcDbEntity
  8
BUILDING
100
AcDbVertex
100
AcDb3dPolylineVertex
 10
19941.93232206146
 20
9917.698425459086
 30
91.83490584173346
 70
    32
  0
VERTEX
  5
E8
330
DA
100
AcDbEntity
  8
BUILDING
100
AcDbVertex
100
AcDb3dPolylineVertex
 10
19941.93143271889
 20
9917.706406453117
 30
91.83407456962306
 70
    32
  0
VERTEX
  5
E9
330
DA
100
AcDbEntity
  8
BUILDING
100
AcDbVertex
100
AcDb3dPolylineVertex
 10
19944.24987328223
 20
9913.398102629706
 30
91.87811156770269
 70
    32
  0
VERTEX
  5
EA
330
DA
100
AcDbEntity
  8
BUILDING
100
AcDbVertex
100
AcDb3dPolylineVertex
 10
19966.94959595964
 20
9925.551241891128
 30
91.90640913435787
 70
    32
  0
VERTEX
  5
EB
330
DA
100
AcDbEntity
  8
BUILDING
100
AcDbVertex
100
AcDb3dPolylineVertex
 10
19965.55816839588
 20
9928.288346550621
 30
91.85786750929954
 70
    32
  0
VERTEX
  5
EC
330
DA
100
AcDbEntity
  8
BUILDING
100
AcDbVertex
100
AcDb3dPolylineVertex
 10
19975.80756887371
 20
9933.821827275648
 30
91.87456950898779
 70
    32
  0
VERTEX
  5
ED
330
DA
100
AcDbEntity
  8
BUILDING
100
AcDbVertex
100
AcDb3dPolylineVertex
 10
19977.25860174725
 20
9931.198990461844
 30
91.8797902059712
 70
    32
  0
SEQEND
  5
EF
330
DA
100
AcDbEntity
  8
BUILDING
  0
POLYLINE
  5
F0
330
2
100
AcDbEntity
  8
CONC
100
AcDb3dPolyline
 66
     1
 10
0.0
 20
0.0
 30
0.0
 70
     8
1001
FINISH
1000
c:\documents and settings\jason hallett\my documents\carlson\sample data\survce_dataset\survce_demo.crd
1001
HARDBRK
1000
HARD
  0
VERTEX
  5
F1
330
F0
100
AcDbEntity
  8
CONC
100
AcDbVertex
100
AcDb3dPolylineVertex
 10
19921.3063707164
 20
9915.555815099878
 30
91.76562903237266
 70
    32
  0
VERTEX
  5
F2
330
F0
100
AcDbEntity
  8
CONC
100
AcDbVertex
100
AcDb3dPolylineVertex
 10
19925.1283347997
 20
9908.678591988056
 30
91.90923615185608
 70
    32
  0
SEQEND
  5
F3
330
F0
100
AcDbEntity
  8
CONC
  0
POLYLINE
  5
F4
330
2
100
AcDbEntity
  8
CONC
100
AcDb3dPolyline
 66
     1
 10
0.0
 20
0.0
 30
0.0
 70
     8
1001
FINISH
1000
c:\documents and settings\jason hallett\my documents\carlson\sample data\survce_dataset\survce_demo.crd
1001
HARDBRK
1000
HARD
  0
VERTEX
  5
F5
330
F4
100
AcDbEntity
  8
CONC
100
AcDbVertex
100
AcDb3dPolylineVertex
 10
19921.23543637141
 20
9915.517378023677
 30
91.16390010633772
 70
    32
  0
VERTEX
  5
F6
330
F4
100
AcDbEntity
  8
CONC
100
AcDbVertex
100
AcDb3dPolylineVertex
 10
19924.97959950858
 20
9908.604805162918
 30
91.30548788172516
 70
    32
  0
SEQEND
  5
F7
330
F4
100
AcDbEntity
  8
CONC
  0
POLYLINE
  5
F8
330
2
100
AcDbEntity
  8
FENCE
  6
CONTINUOUS
100
AcDb3dPolyline
 66
     1
 10
0.0
 20
0.0
 30
0.0
 70
     8
1001
FINISH
1000
c:\documents and settings\jason hallett\my documents\carlson\sample data\survce_dataset\survce_demo.crd
  0
VERTEX
  5
F9
330
F8
100
AcDbEntity
  8
FENCE
  6
CONTINUOUS
100
AcDbVertex
100
AcDb3dPolylineVertex
 10
19912.60397512581
 20
9901.35914561884
 30
89.9526127081069
 70
    32
  0
VERTEX
  5
FA
330
F8
100
AcDbEntity
  8
FENCE
  6
CONTINUOUS
100
AcDbVertex
100
AcDb3dPolylineVertex
 10
19922.25198140836
 20
9906.535456164768
 30
90.51415166721216
 70
    32
  0
SEQEND
  5
FB
330
F8
100
AcDbEntity
  8
FENCE
  6
CONTINUOUS
  0
POLYLINE
  5
FC
330
2
100
AcDbEntity
  8
FENCE
  6
CONTINUOUS
100
AcDb3dPolyline
 66
     1
 10
0.0
 20
0.0
 30
0.0
 70
     8
1001
FINISH
1000
c:\documents and settings\jason hallett\my documents\carlson\sample data\survce_dataset\survce_demo.crd
  0
VERTEX
  5
FD
330
FC
100
AcDbEntity
  8
FENCE
  6
CONTINUOUS
100
AcDbVertex
100
AcDb3dPolylineVertex
 10
19949.68777591643
 20
9831.125018002552
 30
90.45731134828676
 70
    32
  0
VERTEX
  5
FE
330
FC
100
AcDbEntity
  8
FENCE
  6
CONTINUOUS
100
AcDbVertex
100
AcDb3dPolylineVertex
 10
19959.31884231454
 20
9836.34636094591
 30
90.56096318866798
 70
    32
  0
SEQEND
  5
FF
330
FC
100
AcDbEntity
  8
FENCE
  6
CONTINUOUS
  0
POLYLINE
  5
100
330
2
100
AcDbEntity
  8
CONC
100
AcDb3dPolyline
 66
     1
 10
0.0
 20
0.0
 30
0.0
 70
     8
1001
FINISH
1000
c:\documents and settings\jason hallett\my documents\carlson\sample data\survce_dataset\survce_demo.crd
1001
HARDBRK
1000
HARD
  0
VERTEX
  5
101
330
100
100
AcDbEntity
  8
CONC
100
AcDbVertex
100
AcDb3dPolylineVertex
 10
19940.74802655746
 20
9864.862317422504
 30
90.3269547779991
 70
    32
  0
VERTEX
  5
102
330
100
100
AcDbEntity
  8
CONC
100
AcDbVertex
100
AcDb3dPolylineVertex
 10
19928.74899941104
 20
9887.083042329365
 30
90.68919120301298
 70
    32
  0
VERTEX
  5
103
330
100
100
AcDbEntity
  8
CONC
100
AcDbVertex
100
AcDb3dPolylineVertex
 10
19932.14979818149
 20
9888.973757868132
 30
90.73690611942387
 70
    32
  0
SEQEND
  5
104
330
100
100
AcDbEntity
  8
CONC
  0
POLYLINE
  5
105
330
2
100
AcDbEntity
  8
GRADE-BREAKS
  6
CONTINUOUS
100
AcDb3dPolyline
 66
     1
 10
0.0
 20
0.0
 30
0.0
 70
     8
1001
FINISH
1000
c:\documents and settings\jason hallett\my documents\carlson\sample data\survce_dataset\survce_demo.crd
1001
HARDBRK
1000
HARD
  0
VERTEX
  5
106
330
105
100
AcDbEntity
  8
GRADE-BREAKS
  6
CONTINUOUS
100
AcDbVertex
100
AcDb3dPolylineVertex
 10
19923.43871827345
 20
9908.027299699021
 30
90.65477004522206
 70
    32
  0
VERTEX
  5
107
330
105
100
AcDbEntity
  8
GRADE-BREAKS
  6
CONTINUOUS
100
AcDbVertex
100
AcDb3dPolylineVertex
 10
19919.85504387171
 20
9914.943487792433
 30
90.68413446218876
 70
    32
  0
VERTEX
  5
108
330
105
100
AcDbEntity
  8
GRADE-BREAKS
  6
CONTINUOUS
100
AcDbVertex
100
AcDb3dPolylineVertex
 10
19929.5389097042
 20
9920.109714592243
 30
91.38065417577962
 70
    32
  0
VERTEX
  5
109
330
105
100
AcDbEntity
  8
GRADE-BREAKS
  6
CONTINUOUS
100
AcDbVertex
100
AcDb3dPolylineVertex
 10
19938.04495456704
 20
9924.665432854673
 30
91.42189029699936
 70
    32
  0
SEQEND
  5
10A
330
105
100
AcDbEntity
  8
GRADE-BREAKS
  6
CONTINUOUS
  0
POLYLINE
  5
10B
330
2
100
AcDbEntity
  8
FENCE
  6
CONTINUOUS
100
AcDb3dPolyline
 66
     1
 10
0.0
 20
0.0
 30
0.0
 70
     8
1001
FINISH
1000
c:\documents and settings\jason hallett\my documents\carlson\sample data\survce_dataset\survce_demo.crd
  0
VERTEX
  5
10C
330
10B
100
AcDbEntity
  8
FENCE
  6
CONTINUOUS
100
AcDbVertex
100
AcDb3dPolylineVertex
 10
20033.76961235601
 20
9936.516401208779
 30
92.21803121280741
 70
    32
  0
VERTEX
  5
10D
330
10B
100
AcDbEntity
  8
FENCE
  6
CONTINUOUS
100
AcDbVertex
100
AcDb3dPolylineVertex
 10
20023.17902137845
 20
9930.620533807958
 30
91.19630755011376
 70
    32
  0
VERTEX
  5
10E
330
10B
100
AcDbEntity
  8
FENCE
  6
CONTINUOUS
100
AcDbVertex
100
AcDb3dPolylineVertex
 10
20018.40199159797
 20
9927.994402113712
 30
91.20962647499544
 70
    32
  0
VERTEX
  5
10F
330
10B
100
AcDbEntity
  8
FENCE
  6
CONTINUOUS
100
AcDbVertex
100
AcDb3dPolylineVertex
 10
20013.74109248281
 20
9925.501956040832
 30
91.29007490071025
 70
    32
  0
VERTEX
  5
110
330
10B
100
AcDbEntity
  8
FENCE
  6
CONTINUOUS
100
AcDbVertex
100
AcDb3dPolylineVertex
 10
20002.44970640079
 20
9919.676825668815
 30
91.40176643032914
 70
    32
  0
SEQEND
  5
111
330
10B
100
AcDbEntity
  8
FENCE
  6
CONTINUOUS
  0
POLYLINE
  5
112
330
2
100
AcDbEntity
  8
CONC
100
AcDb3dPolyline
 66
     1
 10
0.0
 20
0.0
 30
0.0
 70
     8
1001
FINISH
1000
c:\documents and settings\jason hallett\my documents\carlson\sample data\survce_dataset\survce_demo.crd
1001
HARDBRK
1000
HARD
  0
VERTEX
  5
113
330
112
100
AcDbEntity
  8
CONC
100
AcDbVertex
100
AcDb3dPolylineVertex
 10
19991.81744666456
 20
9938.980554197602
 30
91.4205633459886
 70
    32
  0
VERTEX
  5
114
330
112
100
AcDbEntity
  8
CONC
100
AcDbVertex
100
AcDb3dPolylineVertex
 10
19987.8680765878
 20
9945.870977838817
 30
91.7325826592417
 70
    32
  0
SEQEND
  5
115
330
112
100
AcDbEntity
  8
CONC
  0
POLYLINE
  5
116
330
2
100
AcDbEntity
  8
BUILDING
100
AcDb3dPolyline
 66
     1
 10
0.0
 20
0.0
 30
0.0
 70
     9
1001
FINISH
1000
c:\documents and settings\jason hallett\my documents\carlson\sample data\survce_dataset\survce_demo.crd
1001
HARDBRK
1000
HARD
  0
VERTEX
  5
117
330
116
100
AcDbEntity
  8
BUILDING
100
AcDbVertex
100
AcDb3dPolylineVertex
 10
19986.19601346918
 20
9990.706323964793
 30
91.63970077920408
 70
    32
  0
VERTEX
  5
118
330
116
100
AcDbEntity
  8
BUILDING
100
AcDbVertex
100
AcDb3dPolylineVertex
 10
19989.75917663774
 20
9983.460904302241
 30
90.99847951167161
 70
    32
  0
VERTEX
  5
119
330
116
100
AcDbEntity
  8
BUILDING
100
AcDbVertex
100
AcDb3dPolylineVertex
 10
19979.94328191621
 20
9978.489675499389
 30
90.67040881939931
 70
    32
  0
VERTEX
  5
11A
330
116
100
AcDbEntity
  8
BUILDING
100
AcDbVertex
100
AcDb3dPolylineVertex
 10
19976.28129280498
 20
9985.783449753052
 30
91.2450894051369
 70
    32
  0
SEQEND
  5
11B
330
116
100
AcDbEntity
  8
BUILDING
  0
ENDSEC
  0
SECTION
  2
OBJECTS
  0
DICTIONARY
  5
9
330
0
100
AcDbDictionary
  3
ACAD_GROUP
350
27
  3
ACAD_LAYOUT
350
E
  3
ACAD_MLINESTYLE
350
28
  3
ACAD_PLOTSETTINGS
350
29
  3
ACAD_PLOTSTYLENAME
350
8
  3
ACDBHEADERROUNDTRIPXREC
350
123
  3
ACDBVARIABLEDICTIONARY
350
11C
1001
ADE
1000
ADE02C004
1000
[Query]
1000
CaseSensitiveMatch=0
1000
SaveCurrQueryInSession=1
1000
MkSelSetWithQryObj=0
1000
ShowBlockAsInsPt=0
1000
CreateAssociativeHatchObjects=0
1000
ReferenceBoundaryForAreaLocation=1
1000
ShowImageAsBoundary=1
1000
DefaultJoinOperator=2
1000
ColorForAdd=red
1000
ColorForRemove=red
1000
BlockLocnForQuery=1
1000
TextLocnForQuery=1
1000
[Save Back]
1000
RedefineBlockDefinitions=1
1000
RedefineLayerDefinitions=1
1000
RedefineTextStyleDefinitions=1
1000
RemoveUnusedGroups=1
1000
EraseSavedBackObjects=1
1000
RemoveLockAfterSave=1
1000
CreateHistoryFileOfChanges=0
1000
CreateBackupFileOfSourceDwg=1
1000
DontAddObjectsToSaveSet=0
1000
MarkObjectsForEditingWithoutPrompting=0
1000
[Coordinate Transformation]
1000
RestoreLastActiveDwgsOnStartup=1
1000
ActivateDwgsOnAttach=1
1000
AdjustSizesAndScalesForChangesInUnits=1
1000
AdjustRotationsForMapDistortions=1
1000
AdjustSizesAndScalesForMapDistortions=1
1000
AdjustElevations=1
1000
AdjustZeroRotationObjects=1
1000
ReconnectDbOnWSOpen=1
1000
NoOfSQLConditionsInHistory=10
  0
DICTIONARY
  5
16
330
15
100
AcDbDictionary
280
     1
  3
ACAD_LAYERFILTERS
360
17
  3
ACAD_LAYERSTATES
360
18
  0
DICTIONARY
  5
3
330
2
100
AcDbDictionary
280
     1
  3
ACAD_LAYOUTSELFREF
360
143
  0
DICTIONARY
  5
10
330
F
100
AcDbDictionary
280
     1
  3
ACAD_LAYOUTSELFREF
360
144
  0
DICTIONARY
  5
27
102
{ACAD_REACTORS
330
9
102
}
330
9
100
AcDbDictionary
  0
DICTIONARY
  5
E
102
{ACAD_REACTORS
330
9
102
}
330
9
100
AcDbDictionary
  0
DICTIONARY
  5
28
102
{ACAD_REACTORS
330
9
102
}
330
9
100
AcDbDictionary
  3
STANDARD
350
2C
  0
DICTIONARY
  5
29
102
{ACAD_REACTORS
330
9
102
}
330
9
100
AcDbDictionary
  0
ACDBDICTIONARYWDFLT
  5
8
102
{ACAD_REACTORS
330
9
102
}
330
9
100
AcDbDictionary
281
     1
  3
Normal
350
7
100
AcDbDictionaryWithDefault
340
7
  0
DICTIONARY
  5
123
102
{ACAD_REACTORS
330
9
102
}
330
9
100
AcDbDictionary
  3
CEPSNTYPE
350
12D
  3
FINGERPRINTGUID
350
12E
  3
HYPERLINKBASE
350
126
  3
INSUNITS
350
12C
  3
LAYOUTDICT
350
128
  3
LWETCUNION
350
12B
  3
PLOTSETDICT
350
129
  3
PLOTSTYLNAMDICT
350
12A
  3
PSVPSCALE
350
130
  3
PUCSBASE
350
133
  3
PUCSORGBACK
350
139
  3
PUCSORGBOTTOM
350
135
  3
PUCSORGFRONT
350
138
  3
PUCSORGLEFT
350
136
  3
PUCSORGRIGHT
350
137
  3
PUCSORGTOP
350
134
  3
PUCSORTHOREF
350
131
  3
PUCSORTHOVIEW
350
132
  3
STYLESHEET
350
127
  3
TSTACKALIGN
350
124
  3
TSTACKSIZE
350
125
  3
UCSBASE
350
13C
  3
UCSORGBACK
350
142
  3
UCSORGBOTTOM
350
13E
  3
UCSORGFRONT
350
141
  3
UCSORGLEFT
350
13F
  3
UCSORGRIGHT
350
140
  3
UCSORGTOP
350
13D
  3
UCSORTHOREF
350
13A
  3
UCSORTHOVIEW
350
13B
  3
VERSIONGUID
350
12F
  0
DICTIONARY
  5
11C
102
{ACAD_REACTORS
330
9
102
}
330
9
100
AcDbDictionary
  3
DIMASSOC
350
11E
  3
HIDETEXT
350
11D
  0
DICTIONARY
  5
17
102
{ACAD_REACTORS
330
16
102
}
330
16
100
AcDbDictionary
280
     1
  0
DICTIONARY
  5
18
102
{ACAD_REACTORS
330
16
102
}
330
16
100
AcDbDictionary
  0
XRECORD
  5
143
102
{ACAD_REACTORS
330
3
102
}
330
3
100
AcDbXrecord
340
2
  0
XRECORD
  5
144
102
{ACAD_REACTORS
330
10
102
}
330
10
100
AcDbXrecord
340
F
  0
MLINESTYLE
  5
2C
102
{ACAD_REACTORS
330
28
102
}
330
28
100
AcDbMlineStyle
  2
STANDARD
 70
     0
  3

 62
     0
 51
90.0
 52
90.0
 71
     2
 49
0.5
 62
   256
  6
BYLAYER
 49
-0.5
 62
   256
  6
BYLAYER
  0
ACDBPLACEHOLDER
  5
7
102
{ACAD_REACTORS
330
8
102
}
330
8
100
AcDbPlaceHolder
280
     0
  0
XRECORD
  5
12D
102
{ACAD_REACTORS
330
123
102
}
330
123
100
AcDbXrecord
 90
        0
  0
XRECORD
  5
12E
102
{ACAD_REACTORS
330
123
102
}
330
123
100
AcDbXrecord
  1
{6C1B0770-D8BE-11D2-B64E-0080C8842F71}
  0
XRECORD
  5
126
102
{ACAD_REACTORS
330
123
102
}
330
123
100
AcDbXrecord
  1

  0
XRECORD
  5
12C
102
{ACAD_REACTORS
330
123
102
}
330
123
100
AcDbXrecord
 90
        0
  0
XRECORD
  5
128
102
{ACAD_REACTORS
330
123
102
}
330
123
100
AcDbXrecord
340
E
  0
XRECORD
  5
12B
102
{ACAD_REACTORS
330
123
102
}
330
123
100
AcDbXrecord
 90
    10781
  0
XRECORD
  5
129
102
{ACAD_REACTORS
330
123
102
}
330
123
100
AcDbXrecord
340
29
  0
XRECORD
  5
12A
102
{ACAD_REACTORS
330
123
102
}
330
123
100
AcDbXrecord
340
8
  0
XRECORD
  5
130
102
{ACAD_REACTORS
330
123
102
}
330
123
100
AcDbXrecord
 40
0.0
  0
XRECORD
  5
133
102
{ACAD_REACTORS
330
123
102
}
330
123
100
AcDbXrecord
340
0
  0
XRECORD
  5
139
102
{ACAD_REACTORS
330
123
102
}
330
123
100
AcDbXrecord
 10
0.0
 20
0.0
 30
0.0
  0
XRECORD
  5
135
102
{ACAD_REACTORS
330
123
102
}
330
123
100
AcDbXrecord
 10
0.0
 20
0.0
 30
0.0
  0
XRECORD
  5
138
102
{ACAD_REACTORS
330
123
102
}
330
123
100
AcDbXrecord
 10
0.0
 20
0.0
 30
0.0
  0
XRECORD
  5
136
102
{ACAD_REACTORS
330
123
102
}
330
123
100
AcDbXrecord
 10
0.0
 20
0.0
 30
0.0
  0
XRECORD
  5
137
102
{ACAD_REACTORS
330
123
102
}
330
123
100
AcDbXrecord
 10
0.0
 20
0.0
 30
0.0
  0
XRECORD
  5
134
102
{ACAD_REACTORS
330
123
102
}
330
123
100
AcDbXrecord
 10
0.0
 20
0.0
 30
0.0
  0
XRECORD
  5
131
102
{ACAD_REACTORS
330
123
102
}
330
123
100
AcDbXrecord
340
0
  0
XRECORD
  5
132
102
{ACAD_REACTORS
330
123
102
}
330
123
100
AcDbXrecord
 70
     0
  0
XRECORD
  5
127
102
{ACAD_REACTORS
330
123
102
}
330
123
100
AcDbXrecord
  1

  0
XRECORD
  5
124
102
{ACAD_REACTORS
330
123
102
}
330
123
100
AcDbXrecord
 90
        1
  0
XRECORD
  5
125
102
{ACAD_REACTORS
330
123
102
}
330
123
100
AcDbXrecord
 90
       70
  0
XRECORD
  5
13C
102
{ACAD_REACTORS
330
123
102
}
330
123
100
AcDbXrecord
340
0
  0
XRECORD
  5
142
102
{ACAD_REACTORS
330
123
102
}
330
123
100
AcDbXrecord
 10
0.0
 20
0.0
 30
0.0
  0
XRECORD
  5
13E
102
{ACAD_REACTORS
330
123
102
}
330
123
100
AcDbXrecord
 10
0.0
 20
0.0
 30
0.0
  0
XRECORD
  5
141
102
{ACAD_REACTORS
330
123
102
}
330
123
100
AcDbXrecord
 10
0.0
 20
0.0
 30
0.0
  0
XRECORD
  5
13F
102
{ACAD_REACTORS
330
123
102
}
330
123
100
AcDbXrecord
 10
0.0
 20
0.0
 30
0.0
  0
XRECORD
  5
140
102
{ACAD_REACTORS
330
123
102
}
330
123
100
AcDbXrecord
 10
0.0
 20
0.0
 30
0.0
  0
XRECORD
  5
13D
102
{ACAD_REACTORS
330
123
102
}
330
123
100
AcDbXrecord
 10
0.0
 20
0.0
 30
0.0
  0
XRECORD
  5
13A
102
{ACAD_REACTORS
330
123
102
}
330
123
100
AcDbXrecord
340
0
  0
XRECORD
  5
13B
102
{ACAD_REACTORS
330
123
102
}
330
123
100
AcDbXrecord
 70
     0
  0
XRECORD
  5
12F
102
{ACAD_REACTORS
330
123
102
}
330
123
100
AcDbXrecord
  1
{6D7679DE-8A0E-4B61-B77D-2A7873D01140}
  0
DICTIONARYVAR
  5
11E
102
{ACAD_REACTORS
330
11C
102
}
330
11C
100
DictionaryVariables
280
     0
  1
1
  0
DICTIONARYVAR
  5
11D
102
{ACAD_REACTORS
330
11C
102
}
330
11C
100
DictionaryVariables
280
     0
  1
1
  0
ENDSEC
  0
EOF
